Sheet Music
0..9 A B C D E F G H I J K L M N O P Q R S T U V W X Y Z

Pug Jelly – Another Heartache sheet music

Rating: 1 Star2 Stars3 Stars4 Stars5 Stars
Loading...
 Another Heartache 
Pug Jelly

* palm mute
>let ring

verse
i can't make ....
e|---------------------------------------------------
B|---------------------------------------------------
G|-------------------------------7-7-7-7---5-5-5-5---
D|-5-5-5-5---4-4-4-4---2-2-2-2---7-7-7-7---5-5-5-5---
A|-5-5-5-5---5-5-5-5---2-2-2-2---5-5-5-5---3-3-3-3---
E|-3-3-3-3---2-2-2-2---0-0-0-0-----------------------
   * * * * (throughout)

e|----------------------------------------------
B|----------------------------------------------
G|-7-7-7-7---5-5-5-5---7------------------------
D|-7-7-7-7---5-5-5-5---7->-----5-5--------------
A|-5-5-5-5---3-3-3-3---5-------5-5--------------
E|-----------------------------3-3--------------

why can't you see....
e|--------------------------------------------------------------------
B|--------------------------------------------------------------------
G|-555555-777777-999999-9---555555-777777-999-777--555555-555555-77777-
D|-555555-777777-999999-9---555555-777777-999-777--555555-555555-77777-
A|-333333-555555-777777-7---333333-555555-777-555--333333-333333-55555-
E|--------------------------------------------------------------------

** you told the truth...
e|----------------------------------------------------
B|----------------------------------------------------
G|---------77-777-55-555-55-555-55555555-77777777-----
D|--55-555-77-777-55-555-55-555-55555555-77777777-----
A|--55-555-55-555-33-333-33-333-33333333-55555555-----
E|--33-333--------------------------------------------
       ***    ***    ***    ***

solo
e|--------------------------------------------------
B|--------------------------------------------------
G|-77-55-44--77-55-44--|-----------5--4-5-7--5-4----
D|---------------------|---7-5--5-------------------
A|--------------------------------------------------
E|--------------------------------------------------



e|--------------------------------------------------------------------
B|--------------------------------------------------------------------
G|-00-7-0-9-00-7-0-5-4-5-7-5-4--------7-5-4---------5-5-5-7-7-7-------
D|------------------------------7-5----------7-5-5----------------55--
A|--------------------------------------------------------------------
E|--------------------------------------------------------------------



i l ook at you and...
e|---------------------------------------
B|---------------------------------------
G|-55-5-55-5-77-7-77-7-99-9-99-9--9------
D|-55-5-55-5-77-7-77-7-99-9-99-9--9------
A|-33-3-33-3-55-5-55-5-77-7-77-7--7------
E|---------------------------------------
   **   **   **   **   **   **

another heartache
e|----------------------------------------------------------
B|----------------------------------------------------------
G|-55555555-77777777-9999-7777--55555555555555--77777777----
D|-55555555-77777777-9999-7777--55555555555555--77777777----
A|-33333333-55555555-7777-5555--33333333333333--55555555----
E|----------------------------------------------------------



you told the truth
e|-----------------------------------------------------------
B|-----------------------------------------------------------
G|--------77-777-55-555-55-555-5555555555-6-7777777777-------
D|-55-555-77-777-55-555-55-555-5555555555-6-7777777777-------
A|-55-555-55-555-33-333-33-333-3333333333-4-5555555555-------
E|-33-333----------------------------------------------------
      ***    ***    ***    *** 


e|---------------------------------------------------------
B|---------------------------------------------------------
G|-8888888-99-9-77-7-555555555-77777777--------------------
D|-8888888-99-9-77-7-555555555-77777777--5-5-55-55-5-7-----
A|-6666666-77-7-55-5-333333333-55555555--5-5-55-55-5-7-----
E|---------------------------------------3-3-33-33-3-5-----
           **   **   


i hope u had your fun
e|--------------------------------------------------------------------------------
B|--------------------------------------------------------------------------------
G|-55555555-77777777-9999-7777-555555555-555555555--777777777-9999-7777-55555555--
D|-55555555-77777777-9999-7777-555555555-555555555--777777777-9999-7777-55555555--
A|-33333333-55555555-7777-5555-333333333-333333333--555555555-7777-5555-33333333--
E|--------------------------------------------------------------------------------



e|------------------------------------------
B|------------------------------------------
G|-------77777-99-77--5----7----------------
D|-55555-77777-99-77--5->--7->--------------
A|-55555-55555-77-55--3----5----------------
E|-33333------------------------------------
   ***** ***** 


e|----------------------------------------------------
B|----------------------------------------------------
G|---------77-777-55-555-55-555-55555555-7------------
D|--55-555-77-777-55-555-55-555-55555555-7------------
A|--55-555-55-555-33-333-33-333-33333333-5------------
E|--33-333--------------------------------------------
       ***    ***    ***    ***

e|-------------------------------------------------------
B|-------------------------------------------------------
G|----------------7-7-55555--77777-----------------------
D|-5-5--4-4--2-2--7-7-55555--77777--------5--------------
A|-5-5--5-5--2-2--5-5-33333--55555--------5--------------
E|-3-3--2-2--0-0--------------------------3--------------


repeat solo and end

slap_me@pugjelly.tk 

Puff Daddy – Missing You sheet music

Rating: 1 Star2 Stars3 Stars4 Stars5 Stars
Loading...
 Hey...there's a version of this already, butits difficult 2 play if
u have small hands......so here u go

The tune is basically repeated throughout the song

e-----------------|
B---------0-------|
G-----2-----2---2-|
D---0---0-----0---|   x 2
A-----------------|
E-3---------------|

e-----------------|
B-----------------|
G---------0-------|
D-----4-----4---4-|   x 2
A---2---2-----2---|
E-0---------------|

e---------0-------|
B-----3-----3---3-|
G---0---0-----0---|
D-----------------|   x 1
A-3---------------|
E-----------------|

e---------2-------|
B-----3-----3---2-|
G---2---2-----2---|
D-0---------------|   x 1
A-----------------|
E-----------------|

email me........amphetamines_and_jelly_beans@hotmail.com

Vickeeeeeeeeeeeeeeeeeeeeeeeeeeeeeeeeeeeeeeeeeeeee 

Puff Daddy – Ill Be Missing You sheet music

Rating: 1 Star2 Stars3 Stars4 Stars5 Stars
Loading...
 puff daddy / i`ll be missing you.
 Tabbed by memphis J.
  
Main riff

_____________________________________________________________________
_____________________________________________________________________
_____________________________________________________________________
_____________________________________________________________________
______________________________________________________________7______
_______9____7___________7________________5____________5______________
__5___________________3______________________________________________

x2

then
_____________________________________________________________________
_____________________________________________________________________
_____________________________________________________________________
_____________________________________________________________________
_________________0____________________________________________4______
________4__________4_____________________2___________2_______________
2____________________0_______________________________________________
   x2               
   Then
_______________________________________________________________
_______________________________________________________________
________________________________________________7_____5________
_____________9____7____________5________________5____________7_
____________7_____3________________________3___5_______________
______5_______________________________________________________          

Then play the 1st lil` bit twice and then repeat through the whole song.
Althogh you might think it, this song can`t be converted to the police hit.
 
:: Ultimate Guitar Archive :: 
http://www.ultimate-guitar.com 



 

Puff Daddy – I Need A Girl Pt 2 sheet music

Rating: 1 Star2 Stars3 Stars4 Stars5 Stars
Loading...
 here it is juzz repeat through the whole song......its pretty easy nd it sounds good.

E|---12--10--------13--12--10--12----13--12-------------10-12------
B|--------------------------------------------13-----12------------
G|-----------------------------------------------------------------
D|-----------------------------------------------------------------
A|-----------------------------------------------------------------
E|-----------------------------------------------------------------


any questions ...e mail at alakdan75@hotmail.com 

Puff Daddy – I Need A Girl Pt 2 sheet music

Rating: 1 Star2 Stars3 Stars4 Stars5 Stars
Loading...
 this is p diddy and the song is i need a girl part two. this is one of my cool
songs and it sounds like it.i think this dudes real name is puff daddy but i dont
know or maybye pimp daddy.

title: i need a girl part two
artist: p diddy
tabbed by: LeeGail
email: hollow_teen@hotmail.com (Lee)

here is it there is no strumming only picking

hammer on- h
slide- s


--9h11-9--12-11-9-11-11s12-11-7-9-7s9-9h11--| then continue it until the second
--------------------------------------------| part and here is the second part
--------------------------------------------|
--------------------------------------------|
--------------------------------------------|
--------------------------------------------|

----------------------------------------------------------------------------

--9h11-9--12-11-9-11-11s12-11-7-9-7s5-5h7-5-5h7-7-9-7h9-7-9h11-9-----| then 
---------------------------------------------------------------------| start
---------------------------------------------------------------------| from
---------------------------------------------------------------------| the
---------------------------------------------------------------------|beginning
---------------------------------------------------------------------| again


ok i think i messed up the last part a little bit. my head was gpoing crazy and
almost exploded but its worth it. so ok sorry if its hard cause all the hammer
ons and slides. but if you have any questions then email me at hollow_teen@hotmail.com 

Puff Daddy – I Dont Wanna Know sheet music

Rating: 1 Star2 Stars3 Stars4 Stars5 Stars
Loading...
 e|-1-0-------------------------------0-0-1-0-------------|
B|-----3-2-3-0-3-2-2-2-3-2-0-2-3-0-3---------3-2-3-------|
G|-------------------------------------------------------|
D|-------------------------------------------------------|
A|-------------------------------------------------------|
E|-------------------------------------------------------|


e|-1-0-------------------------------0-0-1-0-------------|
B|-----3-2-3-0-3-2-2-2-3-2-0-2-3-0-3---------3-2-0-------|
G|-------------------------------------------------------|
D|-------------------------------------------------------|
A|-------------------------------------------------------|
E|-------------------------------------------------------|

HoPe It'S rIgHt  =) 

Puff Daddy – Come With Me sheet music

Rating: 1 Star2 Stars3 Stars4 Stars5 Stars
Loading...
   BTAB: Come With Me
Artist: PuffDaddy f/Jimmy Page
 Album: Godzilla (soundtrack)
Author: Rattman (jratt0@hotmail.com)

**Padrino's Bass Tab Exclusive!**

G---------------------------
D-0-0-0--12-12-12--12-12-12-
A---------------------------
E---------------------------

This repeats through the whole song. I think there is another section, I will
add it when I get a recording.

Taken from Padrino's Bass Tab Archive: http://members.xoom.com/jszalma/
 

Puff Daddy – Come With Me sheet music

Rating: 1 Star2 Stars3 Stars4 Stars5 Stars
Loading...
 sorry to burst anyone's bubble, but this is the exact same thing as
Kashmir by Led Zeppelin.  It goes like this:
                                                      /=slide up
                                                      *=let ring
Intro                                                 x=mute
-------------------------------------------------------------------|
-------------------------------------------------------------------|
-4-4-4--4-4-4---5-5-5--5-5-5---6-6-6--6-6-6---7-7-7--7-7-7---9-9-9-|
-x-x-x--x-x-x---x-x-x--x-x-x---x-x-x--x-x-x---x-x-x--x-x-x---x-x-x-|
-2-2-2--2-2-2---3-3-3--3-3-3---4-4-4--4-4-4---5-5-5--5-5-5---7-7-7-|
--------------0--------------0--------------0--------------0-------|

Outro (I had to guess on this one, since the only thing you can hear
are the violins)

-------------------------------------------------------------------------------|
-------------------------------------------------------------------------------|
13-13-13--13-13-13---11-11-11--11-11-11--9-9-9--9-9-9---7-7-7--7/13*--13-13-13-|
xx-xx-xx--xx-xx-xx---xx-xx-xx--xx-xx-xx--x-x-x--x-x-x---x-x-x--x-xx---xx-xx-xx-|
11-11-11--11-11-11---9--9--9---9--9--9---7-7-7--7-7-7---5-5-5--5/11*--11-11-11-|
-------------------0-------------------0--------------0------------------------|

i did the best i could with the outro, so try not to be too hard on me.
      thanks. 

Puff Daddy – Come With Me sheet music

Rating: 1 Star2 Stars3 Stars4 Stars5 Stars
Loading...
 sorry to put down anyone's hard work, but this is the exact same thing as Kasmir by Led Zeppelin.  Here it is:

Intro
----------------------------------------------------------
----------------------------------------------------------
-4-4-4--4-4-4---5-5-5--5-5-5---6-6-6--6-6-6---7-7-7--7-7-7
-x-x-x--x-x-x---x-x-x--x-x-x---x-x-x--x-x-x---x-x-x--x-x-x
-2-2-2--2-2-2---3-3-3--3-3-3---4-4-4--4-4-4---5-5-5--5-5-5
--------------0--------------0--------------0-------------

----------                               /=slide down
----------                               x=mute
---9-9-9--                               ~=let ring
---x-x-x--
---7-7-7--
-0--------


Outro  (I had to guess at this one, since you can't really hear anything but the violins)

------------------------------------------------------
------------------------------------------------------
13-13-13--13-13-13---11-11-11--11-11-11--9-9-9--9-9-9-
xx-xx-xx--xx-xx-xx---xx-xx-xx--xx-xx-xx--x-x-x--x-x-x-
11-11-11--11-11-11---9--9--9---9--9--9---7-7-7--7-7-7-
-------------------0-------------------0--------------

-------------------------------------------------------
-------------------------------------------------------
--7-7-7--7~/13--13-13-13-------------------------------
--x-x-x--x------xx-xx-xx-------------------------------
--5-5-5--5~/11--11-11-11-------------------------------
0------------------------------------------------------

There it is, let me know how you like it. 

Puff Daddy – Come With Me sheet music

Rating: 1 Star2 Stars3 Stars4 Stars5 Stars
Loading...
 The intro is the same thing as Kashmir by Led Zeppelin.

Intro
-----------------------------------------------------
-----------------------------------------------------
-4-4-4--4-4-4---5-5-5--5-5-5---6-6-6--6-6-6---7-7-7--
-x-x-x--x-x-x---x-x-x--x-x-x---x-x-x--x-x-x---x-x-x--
-2-2-2--2-2-2---3-3-3--3-3-3---4-4-4--4-4-4---5-5-5--
--------------0--------------0--------------0-------- 
(Continued)
----------------       x=mute
----------------       /=slide 
7-7-7----9-9-9--       *=let ring
x-x-x----x-x-x--
5-5-5----7-7-7--
------0---------

I had to guess at the outro considering the only thing you can hear are the violins.
------------------------------------------------------
------------------------------------------------------
13-13-13---13-13-13--11-11-11--11-11-11---9-9-9--9-9-9
xx-xx-xx---xx-xx-xx--xx-xx-xx--xx-xx-xx---x-x-x--x-x-x
11-11-11---11-11-11---9--9--9---9--9--9---7-7-7--7-7-7
--------------------0-------------------0-------------
(Continued)

---------------------------------------------------
---------------------------------------------------
--7-7-7--7*/13-13-13-------------------------------
--x-x-x--------------------------------------------
--5-5-5--5*/11-11-11-------------------------------
0--------------------------------------------------