Puff Daddy – Bad Boy For Life sheet music

Rating: 1 Star2 Stars3 Stars4 Stars5 Stars
Loading...
 *standard tuning*

-intro-

e----------------------------
b----------------------------
d----------------------------
g----------------------------
a-5-3-5-3--------------------
e---------6------------------

(repeat once)

-rest of the song-
e-----------------------------------------------------------
b-----------------------------------------------------------
d-----3-----------------------------------------------------
g-------5-3-5---3-------------------------------------------
a-----------------5----5-3-5---5-5-3------5-3---------------
e-33---------------------------------6-33-----6-3-6-3-------


That's the song, play it over and over. 

Puff Daddy – Bad Boy For Life sheet music

Rating: 1 Star2 Stars3 Stars4 Stars5 Stars
Loading...
 Puff Daddy, Bad Boy For Life!.
 Tabbed by Michael Sanchez, ciamissions@hotmail.com.
  
This is from Puff Daddy's New Album (2001)

*Standard Tuning* *Overdrive Pedal Optional*

(repeat For whole Song)

A------7-12-9-7-9-4-2-4-2-4-44420---420---0--------
E--2-2----------------------------22----2---2--22--

Listen to the album for how the beat goes.

E-mail For Questions---Mike S.
 
:: Ultimate Guitar Archive :: 
http://www.ultimate-guitar.com 



 

Puff Daddy – Bad Boy For Life sheet music

Rating: 1 Star2 Stars3 Stars4 Stars5 Stars
Loading...
 -------------------------------------------------------------------------------
			     SONG NAME - Band Name
-------------------------------------------------------------------------------

Tabbed By : Greg
e-mail: ciberfrije@yahoo.com

Tuning: Standard

G|---------------------------------------------------------------------------|
D|---------------------------------------------------------------------------|
A|------12-9-7-9--9-7--4-2-4--4-4-4-0-----4-2-0------------------------------|
E|-2-2-------------------------------2-2--------2-0-2------------------------| 

Puff Daddy – Bad Boy For Life sheet music

Rating: 1 Star2 Stars3 Stars4 Stars5 Stars
Loading...
 Puff Daddy-Bad boy for life.
 Tabbed by Tyler Elmergreen  Dreamcastboy@webtv.net.
  


this is my first tab and i say this song is 100 % perfect. this song is really tight and easy to play.


(b----12-9-7-9-7-4-4-2-4--4-4-2-0---4-2
(e-2-2---------------------------2-2---2-2-1-2

 
:: Ultimate Guitar Archive :: 
http://www.ultimate-guitar.com 



 

Puff Daddy – Bad Boy For Life sheet music

Rating: 1 Star2 Stars3 Stars4 Stars5 Stars
Loading...
                Intro
E|-----------------------------------|
B|-----------------------------------|
G|-----------------------------------|
D|---------------------------3-------|
A|--------5--3---------5--3----------|
E|---3--6---------6--3---------------|


                    The Rest Of the song
E|-------------------------------------------------------------|
B|-------------------------------------------------------------|
G|---------3---------------------------------------------------|
D|-------3----5--3--5------------------------------------------|
A|---------------------5-5--3--5---5--3--5--------5--3---------|
E|-3-3-------------------------------------6--3-3------6--3-3-3|
     Repeat over and over again for as long as the song does. 

Puff Daddy – Bad Boy For Life sheet music

Rating: 1 Star2 Stars3 Stars4 Stars5 Stars
Loading...
 Tabbed by - Distortion Devil

Song: Bad Boy For Life
Artist: P. Diddy 
Notes: every - is an eighth note
Bars: in every bar are eight counts or -'s
Bar separators: | (this doesn't mean pause, it just keeps the tabs cleaner)
Let Ring: ~
 

Intro

e||--------|--------||
B||--------|--------||
G||--------|--------||
D||--------|--------||
A||--------|04204204||
E||2~~~~~~~|--------||


Riff (Repeat for rest of song)

e||--------|---------|--------|--------|--------|--------|--------||
B||--------|---------|--------|--------|--------|--------|--------||
G||--------|---------|--------|--------|--------|--------|--------||
D||--------|---------|--------|--------|--------|--------|--------||
A||--------|12-9-7-9-|---7-4--|4-2-4---|4-4-2-0-|------42|--------||
E||-2-2----|---------|--------|--------|--------|2-2-----|5-2-2-2-||

That's it.  If the timing isn't working just listen to how the song goes and
you'll figure it out.

ps Please rate my tab