Puff Daddy – Come With Me sheet music

Rating: 1 Star2 Stars3 Stars4 Stars5 Stars
Loading...
 sorry to burst anyone's bubble, but this is the exact same thing as
Kashmir by Led Zeppelin.  It goes like this:
                                                      /=slide up
                                                      *=let ring
Intro                                                 x=mute
-------------------------------------------------------------------|
-------------------------------------------------------------------|
-4-4-4--4-4-4---5-5-5--5-5-5---6-6-6--6-6-6---7-7-7--7-7-7---9-9-9-|
-x-x-x--x-x-x---x-x-x--x-x-x---x-x-x--x-x-x---x-x-x--x-x-x---x-x-x-|
-2-2-2--2-2-2---3-3-3--3-3-3---4-4-4--4-4-4---5-5-5--5-5-5---7-7-7-|
--------------0--------------0--------------0--------------0-------|

Outro (I had to guess on this one, since the only thing you can hear
are the violins)

-------------------------------------------------------------------------------|
-------------------------------------------------------------------------------|
13-13-13--13-13-13---11-11-11--11-11-11--9-9-9--9-9-9---7-7-7--7/13*--13-13-13-|
xx-xx-xx--xx-xx-xx---xx-xx-xx--xx-xx-xx--x-x-x--x-x-x---x-x-x--x-xx---xx-xx-xx-|
11-11-11--11-11-11---9--9--9---9--9--9---7-7-7--7-7-7---5-5-5--5/11*--11-11-11-|
-------------------0-------------------0--------------0------------------------|

i did the best i could with the outro, so try not to be too hard on me.
      thanks. 

Puff Daddy – Come With Me sheet music

Rating: 1 Star2 Stars3 Stars4 Stars5 Stars
Loading...
   BTAB: Come With Me
Artist: PuffDaddy f/Jimmy Page
 Album: Godzilla (soundtrack)
Author: Rattman (jratt0@hotmail.com)

**Padrino's Bass Tab Exclusive!**

G---------------------------
D-0-0-0--12-12-12--12-12-12-
A---------------------------
E---------------------------

This repeats through the whole song. I think there is another section, I will
add it when I get a recording.

Taken from Padrino's Bass Tab Archive: http://members.xoom.com/jszalma/
 

Puff Daddy – Come With Me sheet music

Rating: 1 Star2 Stars3 Stars4 Stars5 Stars
Loading...
 The intro is the same thing as Kashmir by Led Zeppelin.

Intro
-----------------------------------------------------
-----------------------------------------------------
-4-4-4--4-4-4---5-5-5--5-5-5---6-6-6--6-6-6---7-7-7--
-x-x-x--x-x-x---x-x-x--x-x-x---x-x-x--x-x-x---x-x-x--
-2-2-2--2-2-2---3-3-3--3-3-3---4-4-4--4-4-4---5-5-5--
--------------0--------------0--------------0-------- 
(Continued)
----------------       x=mute
----------------       /=slide 
7-7-7----9-9-9--       *=let ring
x-x-x----x-x-x--
5-5-5----7-7-7--
------0---------

I had to guess at the outro considering the only thing you can hear are the violins.
------------------------------------------------------
------------------------------------------------------
13-13-13---13-13-13--11-11-11--11-11-11---9-9-9--9-9-9
xx-xx-xx---xx-xx-xx--xx-xx-xx--xx-xx-xx---x-x-x--x-x-x
11-11-11---11-11-11---9--9--9---9--9--9---7-7-7--7-7-7
--------------------0-------------------0-------------
(Continued)

---------------------------------------------------
---------------------------------------------------
--7-7-7--7*/13-13-13-------------------------------
--x-x-x--------------------------------------------
--5-5-5--5*/11-11-11-------------------------------
0-------------------------------------------------- 

Puff Daddy – Come With Me sheet music

Rating: 1 Star2 Stars3 Stars4 Stars5 Stars
Loading...
 sorry to put down anyone's hard work, but this is the exact same thing as Kasmir by Led Zeppelin.  Here it is:

Intro
----------------------------------------------------------
----------------------------------------------------------
-4-4-4--4-4-4---5-5-5--5-5-5---6-6-6--6-6-6---7-7-7--7-7-7
-x-x-x--x-x-x---x-x-x--x-x-x---x-x-x--x-x-x---x-x-x--x-x-x
-2-2-2--2-2-2---3-3-3--3-3-3---4-4-4--4-4-4---5-5-5--5-5-5
--------------0--------------0--------------0-------------

----------                               /=slide down
----------                               x=mute
---9-9-9--                               ~=let ring
---x-x-x--
---7-7-7--
-0--------


Outro  (I had to guess at this one, since you can't really hear anything but the violins)

------------------------------------------------------
------------------------------------------------------
13-13-13--13-13-13---11-11-11--11-11-11--9-9-9--9-9-9-
xx-xx-xx--xx-xx-xx---xx-xx-xx--xx-xx-xx--x-x-x--x-x-x-
11-11-11--11-11-11---9--9--9---9--9--9---7-7-7--7-7-7-
-------------------0-------------------0--------------

-------------------------------------------------------
-------------------------------------------------------
--7-7-7--7~/13--13-13-13-------------------------------
--x-x-x--x------xx-xx-xx-------------------------------
--5-5-5--5~/11--11-11-11-------------------------------
0------------------------------------------------------

There it is, let me know how you like it.