Slapstick – ED sheet music

Rating: 1 Star2 Stars3 Stars4 Stars5 Stars
Loading...
 Intro and Verse (palm mute on Intro)
[e:----------------------------------------------------------
B:----------------------------------------------------------
G:--5-------------------------------------------------------
D:--5--7--5--3----------------------------------------------
A:--3--7--5--3----------------------------------------------
E:-----5--3--1----------------------------------------------]

Prechorus (when you told me to believe in myself)
[e:----------------------------------------------------------
B:----------------------------------------------------------
G:----------5-----------------------------------------------
D:--5---7---5---3-------------------------------------------
A:--5---7---3---3-------------------------------------------
E:- 3---5-------1--pick slide-------------------------------]

Chorus
[e:----------------------------------------------------------
B:----------------------------------------------------------
G:--5-------------------------------------------------------
D:--5---5---7---3-------------------------------------------
A:--3---5---7---3-------------------------------------------
E:------3---5---1-------------------------------------------]

End of chorus (i want to hear you say)
[e:----------------------------------------------------------
B:----------------------------------------------------------
G:--5-------------------------------------------------------
D:--5---5---7-----------------------------------------------
A:--3---5---7-----------------------------------------------
E:------3---5-----------------------------------------------]